ผู้ได้รับบาดเจ็บ


ผู้ได้รับบาดเจ็บ

Intro :    G    G    Em    Em    Am    Am    D    D   
Tab
1:--------------------------------------------------------------------
2:--------------------------------------------------------------------
3:-------7-----------------------------------------------------------
4:-4-5-------5-4---------2-5-2-5-2-5-7-7  9-7  5-7---------
5:--------------------5----------------------------------------------
6:--------------------------------------------------------------------
                 G                          Em
ตะโกนออกไป บอกใจให้ลืมเรื่องเหล่านั้น
                               Am                         D        
เรื่องราวของคนที่เคยรักกัน จากนี้มันต้องไม่มีอีก
               G                         Em
เมื่อคนจะไป เหนี่ยวรั้งเท่าไรก็เท่านั้น
                                 Am                       D
เมื่อความรักมา กลับทำร้ายกัน จบกันวันนี้ซะดีกว่า
                 Em                  Am
* แต่หากว่าความรักยังฝัง ลึกซึ้งในจิตใจ
           Em                  C              D
อยากจะเลือนลบไป ก็ต้องย้ำเตือนหัวใจ
                  G                        Em
** ว่าอย่าให้รักมันบาดลึกไป เจ็บพอแล้วหัวใจ
          Am                         D
ไม่ต้องคิด ไม่ใส่ใจ ให้ความรักผ่านพ้นไป
           G                            Em
อาจจะยากเย็น ต้องแข็งใจ อีกนานซักเท่าไร
        Am                     D                     (G)
ก็ต้องคิด ให้เข้าใจ   ว่าชีวิตยังต้องเดินต่อไป

Outro :    D   

         G                              Em
แค่นี้ก็พอ อย่าปล่อยให้มันต้องเจ็บซ้ำ
                             Am                            D
บาดแผลที่ยังเก็บและฝังจำ สักวันจะหายและดีเอง

ซ้ำ  ( * ),( ** )

Solo :    Em    C    Bm    D   
Tab
1:----------------------------------------------------------------------------------
2:-  17-17-17-17  15-15-13-------------------------------------------------
3:-------------------------------------14-  16----11-12-11--12  14---14-
4:-  14-14-14-14  12-12-10-------------------------------------------------
5:-------------------------------------12-  14-----9--10--9--10-  12---12-
6:-----------------------------------------------------------------------------------

( ** ) 
            Em             Am             D                            G
แม้มันจะเจ็บ แม้มันจะผูกพัน แต่วันนี้คงต้องยอม ต้องตัดใจ
                  Em                    Am            D                     G
สุดท้ายมันจะจบ สุดท้ายมันจะผ่านไป แต่ชีวิตยังต้องเดินต่อไป