ที่ระบาย


ที่ระบาย

intro:    D E    C#m F#m    Bm    E

1:--------------------------------------------------
---------------------------------------------------------
2:--7--9-9--9  10-9-5----5-9-9-7-7---7-9-
10-10-10---10-10-10-10--10-10---9-10-12-
3:--------------------------6----------------------
---------------------------------------------------------
4:-------------------------------------------------
----------------------------------------------------------
5:------------------------------------------------
-----------------------------------------------------------
6:------------------------------------------------
-----------------------------------------------------------
                        D                       E    
ทุกครั้งที่เธอสับสน ทุกครั้งที่เธอร้อนรน           
Esus4        C#m           F#m
       ก็มีแต่คนๆ นี้ที่คอยปลอบใจ
                           D                     E   Esus4       
เจ็บช้ำจากเขาเมื่อไหร่ เวลาโดนเขาทำร้าย         
      C#m         F#m                     D  Dmaj7
ร้องไห้ฟูมฟายกับฉัน ก็เธอไม่เคยนึกถึงกัน  

D                              E                                       C#m
  *เธอไม่เคยแคร์ไม่เคยรัก    เป็นที่ระบายอารมณ์เมื่อเธอ

C#m7   F#m            D                E
ถูกใครเขาทิ้งมา พอถึงเวลาเมื่อเธอหายดี

          A                             F#m           
**เป็นได้แค่ที่ระบายไม่ได้เป็นคนที่เธอรัก
           Bm                        E
ปลอบใจเธอเวลาอกหักเขาคืนรักก็จากไป
                 A                        F#m
เป็นได้แค่คนๆหนึ่งที่ทำให้เธอหาย   
                Bm                    E                   (F#m),(D),(A)
บทบาทสุดท้ายฉันก็แค่คนเดิมๆ ที่เธอไม่เคยรักเลย
                  E                            (D)
(ไม่รู้ว่าเมื่อไหร่จะได้ใจจากเธอเสียที)
(1:------------------------------16^--16--14--12--)

                      D                          E  
ทุกครั้งที่เธอมีเขา ตัวฉันก็เพียงแค่เงา             
Esus4          C#m                 F#m
       เวลาเธอเหงาฉันเศร้าเพียงใด        
                          D                      E     Esus4                     
ฉันรักเธอมากเท่าไหร่ แต่เธอไม่เคยสนใจ             
                   C#m                  F#m
คงหมดความหมายเมื่อเธออยู่กับเขา 
                      D    Dmaj7
เคยรักฉันบ้างรึเปล่า

( *,** )

Solo :    C#m    F#m    Bm    E 

Tab

1:-------------------------------------------
---------------------------------------------------
2:-17-17--  9-10--17-17--14-10---  12-
12--14-14-14-15---14-17--14-15---
3:-------------------------------------------
---------------------------------------------------
4:-------------------------------------------
---------------------------------------------------
5:-------------------------------------------
---------------------------------------------------
6:-------------------------------------------
---------------------------------------------------

1:----19--17--16-----------------16--17--19~---
--------------------------------------
2:----------------------18--16----------------------
----------------------------------------
3:-----------------------------------------------------
----------------------------------------
4:------------------------------------------------------
----------------------------------------
5:------------------------------------------------------
----------------------------------------
6:-----------------------------------------------------
-----------------------------------------

( ** )
                Bm                    E                   A
บทบาทสุดท้ายฉันก็แค่ที่ระบายอารมณ์ของเธอ