ไม่อยากหายใจ


Intro :    Bb   
              Bb    Dm    Eb F    ( 2 time )

Tabs :
1:--8-8-8---6--------------8-8-8---6---------------
2:-----------------6-6-6-------------------6-6-6-----
3:--------------------------------------------------------
4:--------------------------------------------------------
5:--------------------------------------------------------
6:--------------------------------------------------------

(3 time)
1:----------------------------------------------------------
2:-----------------------------------------------------------
3:-----10--10--10------8---8----7-----7----7---------
4:-----------------------------------------------------------
5:------8----8----8------6---6-----5----5----5---------
6:-----------------------------------------------------------

1:--------------------------------------------------------------
2:--------------------------------------------------------------
3:-----17--17--17----16---16---16----14---14---14--
4:---------------------------------------------------------------
5:-----15--15--15----14---14---14----12---12---12---
6:--------------------------------------------------------------

(3 time)
1:----------------------------------------------------------
2:-----------------------------------------------------------
3:-----10--10--10------8---8----7-----7----7--------
4:-----------------------------------------------------------
5:------8----8----8------6---6-----5----5----5---------
6:-----------------------------------------------------------

1:-----------------------------------------------------------
2:-----13-13-13--11-11--10-10----------------------
3:-----------------------------------------------------------
4:-----------------------------------------------------------
5:-----------------------------------------------------------
6:-----------------------------------------------------------

Bb          Dm             Eb
นับตั้งแต่วันที่เธอได้จากไป ชีวิตไม่เหลือใคร
Bb           Dm             Eb
ไม่พบเจอผู้คน ไม่รับรู้สิ่งใดฉันไร้ความหมาย
  Dm       Gm             Dm           Eb     F                
*ใจ เจ็บจนอยากหนี จากความจริงที่ไม่มีเธอแล้ว
                   Bb         Dm  Eb            F
**ไม่อยากจะหายใจ อีกแล้ว เวลาจากนี้ ไม่มีความหมาย
          Bb          Dm         Eb          Ebm            (Bb)
เมื่อไม่เหลือใครอีกแล้ว หมดแล้ว ตั้งแต่วันที่เธอต้องจากไป(ตั้งแต่วันที่เธอไป)

Bb           Dm          Eb
ภาพเธอสับสน วกวนในจิตใจ
Bb                Dm                Eb
ไขว่คว้าซักเท่าไร พบเพียงว่างเปล่า

( * ),( ** )

Instru :    Bb    Dm    Eb    F    Bb    Dm    Eb    Ebm   

Solo
1:--------------------------------------------------------------------
2:-------11-12-14-12--------11-12-11-12-11---------------
3:-  11--------------------  11------------------------11  13-----
4:--------------------------------------------------------------------
5:--------------------------------------------------------------------
6:--------------------------------------------------------------------

1:--------------------------------------------------------------------
2:---------11-12-14-12-14-  16---17--14  16-17-19-----
3:--  11-------------------------------------------------------------
4:--------------------------------------------------------------------
5:--------------------------------------------------------------------
6:--------------------------------------------------------------------

1:--------------------------------------------------------------------
2:--------------------------------------------------------------------
3:------16----16-----16  14------11-----12-----14-----------
4:--------------------------------------------------------------------
5:------14----14-----14  12-------9------10-----12-----------
6:--------------------------------------------------------------------

( ** ),( ** )