เครื่องบินกระดาษ


เครื่องบินกระดาษ

intro:G  Gmaj7(2times)

 G               Gmaj7  Em                     C   D
แม้ไม่อยากก็ต้องทำใจ ชีวิตของใครก็ต้องเลือกเอา
G                D                    Em               C   D
แค่ใจสั่นเมื่อคิดเรื่องเก่า เมื่อครั้งที่เรายังเคยมีกัน 
Gmaj7                        D
*เหมือนความรักจะพาเราสอง ล่องลอยขึ้นไป
  Am                               D
เหมือนหนทางกำลังจะสดใส  
 Csus2                     Bm7                    
ไม่เคยได้รู้ว่าแท้จริง ยิ่งนานก็ยิ่งห่าง 
         Am7                            D    Dsus4  D
ความรักมันไม่ใช่ทุกอย่างของหัวใจ
               G        D          Em   D            C                     D             
**อยากให้คนดีๆ สักคนมารักเธอ      ขอให้เขาได้พาเธอล่องลอยไปไกล
                G         D         Em  D        C               D                       G  D  
อยากบอกเธอจริงๆว่าฉันเสียใจ    ที่ฉันไม่ดีพร้อม ฉันยอมให้เธอจาก    ไป

G               Gmaj7     Em                            C    D
ฉันยังเจ็บแต่เริ่มเข้าใจ ความฝันของใครก็คงต้องมี 
G            D             Em                  C     D
ฉันจะจำทุกๆนาที เก็บเรื่องดีๆเอาไว้ในใจ
Gmaj7                          D                       Am                             D
*แค่เครื่องบินกระดาษ คงล่องลอยไปไม่ไกล ร่วงลงดินก็ไม่มีความหมาย
Csus2                     Bm7            Am7                              D    Dsus4  D
เพิ่งจะได้รู้ว่าแท้จริง ยิ่งรักก็ยิ่งต่าง ถูกแล้วที่เธอทำทุกอย่างเพื่อหัวใจ

(ซ้ำ**)
แทปโซโล่

2-10  12--12*--12---------------------15--13-13--12-12
3---------------------------12-12---12----------------------------14--12
ตามด้วย

3-----------------------12-12-------------12h14-12
4-12-12--12h14----------------14--------------------
ตามด้วย
2---------------------------------------------------------
--------------------15-13-12---------------
3----------------------12-12-----------12---14---14  16
-----16-12----------------14-14  16-16
 4--12-12--12h14-------------14-----------------------
------------------------------------------
ตามด้วย
2----12--------------------15--13-13-12-12
3---------12-12---12----------------------------14--12
ต่อ
3-----------------------12-12-------------12h14-12
4-12-12--12h14----------------14--------------------
ต่อ
2--------------------------------------------------------
-----------------------------15--13-12----
3-----------------------12-12----------12----14---
14  16--16-16------12-----------------14  16
4--12-12--12h14--------------14--------------------------------------


(ซ้ำ**)
   G                    D                Em          C        D     G
(ก็คงต้องยอม ให้มันเป็นไป ให้จบกัน)ฉันยอมให้เธอจากไป
        G                D                Em         C           D     G
(หากเธอไปดี จะปล่อยเธอไป จะไม่รั้งไว้)ฉันยอมให้เธอจากไป
       G              D                Em             C            D           G
(ที่จริงในใจ มันยังไม่พร้อม จะพาเธอไป)ฉันยอม   ให้เธอจาก   ไป