ขาดความอบอุ่น


Intro   Dsus 2     Bm  

Dsus2    2ครั้ง                                                        Bm   2 ครั้ง
1--------------------0--------                     1- ----------------------------                 
2------------3-------------3-                     2-- -----------------3---------
3--------2------2------2----                      3-----------4-----------------4
4-----0----------------------                      4-------4--------4---------4--
5-----------------------------                     5----2-------------------------
6-----------------------------                     6-------------------------------

Dsus2              Bm    Dsus2                 Bm
    ถามว่าฉันเป็นอะไร          ถามว่าไม่สบายหรือปล่าว
  G                           A 
  ฐานะคนเคยสนิท  เธอก็คิดเป็นห่วงเป็นใย
  G                         A 
  ฉันก็แค่บรรยากาศพาไป
 Dsus2       Bm    Dsus2                 Bm
   คืนที่ฟ้าไม่มีดาว       คนก็เหงามันไปเรื่อยเปื่อย
    G                           A 
   *ฉันไม่ได้เจ็บได้ป่วย ไม่ต้องเป็นห่วงเป็นใย
      G                            A
    แค่ฉันขาดความอบอุ่นทางใจ
  D              A                   Bm
**แค่กอดกันก็พอ ถ้าหากจะขอได้            
              G                  D
     ถ้าขอได้ ก็ขอแค่นี้และกัน
                         A                    Bm                       G    Dsus2  Bm
     แค่กอดกันก็พอ ที่เหลือก็ปล่อยฉันมันเพ้อมันพร่ำของมัน  ไป
       
Dsus2    2ครั้ง                                                        Bm   2 ครั้ง
1--------------------0--------                     1- ----------------------------                 
2------------3-------------3-                     2-- -----------------3---------
3--------2------2------2----                      3-----------4-----------------4
4-----0----------------------                      4-------4--------4---------4--
5-----------------------------                     5----2-------------------------
6-----------------------------                     6-------------------------------
 
Dsus2       Bm    Dsus2                Bm
   คืนที่ฟ้าไม่มีดาว       คนก็เหงามันไปเรื่อยเปื่อย
    G                                A 
   *ฉันไม่ได้เจ็บได้ป่วย ไม่ต้องเป็นห่วงเป็นใย
      
     G                                    A
    แค่ฉันขาดความอบอุ่นทางใจ
  D              A                  Bm
**แค่กอดกันก็พอ ถ้าหากจะขอได้            
              G                  D
     ถ้าขอได้ ก็ขอแค่นี้และกัน
                         A                    
     แค่กอดกันก็พอ 
                         Bm                       G    D
     ที่เหลือก็ปล่อยฉันมันเพ้อมันพร่ำของมัน  ไป(หัวใจ) …   อีเย้เย
 
 SOLO:
 1----2--3—3  5—7--9--9  10-10—9p10p9—7—--5-- 5  7--
 2------------------------------------------------------------------ 
---    8--  7—8—7—3

 
  1----2--3—3  5—7--9--9  10-10—10  12—10--10—15  
17—15—14—15-----15
   2-------------------------------------------------------------
-------------------------------15-------------

 
 1---------------------------------------------------------------------------------
 2-----------15---------15-----------------------15---------
 3--15  17-------15  17------------------15  17------13  14




(ซ้า*  **)